Beard Show 6.0

Page updated Sept. 6, 2017


Back to Main Page

September - Tutorial

Table of Contents

  1. Song Audio (YouTube)
  2. Song Lyrics and Chords
  3. Keyboard
  4. Bass Tab
  5. Guitar Tab

YouTube Song Audio



Song Form

SONG FORM:

INTRO
Guitar notes:
C# C#, B,  A 
 B B,  G#, A   (x3)
 
 

Song Lyrics and Chords

the following is not perfect, but it is a good start

Intro
||:  Dmaj7    C#m7   Bm7  C#m7 |         F#m7      :||
 |   Dmaj7    C#m7   Bm7  C#m7 |   C#7/E#    F#m7   |  
||:  Gmaj7/A   : ||


[Verse 1]

                  Dmaj7  C#m7  Bm7
Do you remember 
C#m7     F#m7             Dmaj7  C#m7  Bm7
the 21st night of September?
C#m7                               F#m7             Dmaj7  C#m7  Bm7
Love was changing the minds of pretenders
C#m7       C#7/E#  F#m7    Gmaj7/A
While chasing the clouds away


[Verse 2]

Our hearts were ringing

In the key that our souls were singing.

As we danced in the night,

Remember how the stars stole the night away


[Chorus]

Bm7   E7   C#m7          F#m7
Ba de ya - say do you remember
Bm7   E7   C#m7          F#m7
Ba de ya - dancing in September
Bm7   E7   C#m7          F#m7     Gmaj7/A
Ba de ya - never was a cloudy day

Ba de ya 
Bm7   E7   C#m7          F#m7


[Verse 3]

                  Dmaj7  C#m7  Bm7
My thoughts are with you
        C#m7            F#m7    Dmaj7  C#m7  Bm7
Holding hands with your heart to see you
         C#m7      F#m7            
Only blue talk and love,
Dmaj7  C#m7  Bm7  C#m7             C#7/E#       F#m7     Gmaj7/A
Remember                    how we knew love was here to stay


[Verse 4]

    Dmaj7  C#m7  Bm7            C#m7     F#m7          Dmaj7  C#m7  Bm7
Now December         found the love that we shared in September.
      C#m7     F#
Only blue talk and love,
Dmaj7  C#m7  Bm7  C#m7             C#7/E#       F#m7     Gmaj7/A
Remember                         the true love we share today


[Chorus]

Bm7   E7   C#m7          F#m7
Ba de ya - say do you remember
Bm7   E7   C#m7          F#m7
Ba de ya - dancing in September
Bm7   E7   C#m7          F#m7     Gmaj7/A
Ba de ya - never was a cloudy day






Keyboards

Bass

Bass Tab
  INTRO
    G|------0-2-------0-2-------0-2-------0-2-------0-2-------0-2-------0-2----|
    D|-------------------------------------------------------------------------|
    A|-0-0-------0-0-------0-0-------0-0-------0-0-------0-0-------0-0-------0-|
    E|-------------------------------------------------------------------------|

VERSE
G|----------------------------------|--------------------------------------| 
D|----------------------------------|--------------------------------------|
A|-5---5-------4-------2---2---4----|--------------------------------------|
E|----------------------------------|-----4---0---2------------------------|
   1   +   2   +   3   +   4   +      1   +   2   +   3   +   4   +   

PRE CHORUS

G|----------------------------------|--------------------------------------| 
D|----------------------------------|-----2---3---4------------------------|
A|-5---5-------4-------2---2---4----|---------------------4---2------------|
E|----------------------------------|--------------------------------------|
   1   +   2   +   3   +   4   +      1   +   2   +   3   +   4   + 

    G|------0-2-------0-2-------0-2--------------------------------------------|
    D|-------------------------------------------------------------------------|
    A|-0-0-------0-0-------0-0-------0-----------------------------------------|
    E|-------------------------------------------------------------------------| 


CHORUS
G|----------------------------------|--------------------------------------| 
D|---------4---2--------------------|--------------------------------------|
A|-2-------------------2---3---4----|-------------------------0------------|
E|----------------------------------|-----4---0---2------------------------|
   1   +   2   +   3   +   4   +      1   +   2   +   3   +   4   +

G|----------------------------------|--------------------------------------| 
D|---------4---2--------------------|--------------------------------------|
A|-2-------------------2---3---4----|-------------------------0------------|
E|----------------------------------|-----4---0---2------------------------|
   1   +   2   +   3   +   4   +      1   +   2   +   3   +   4   +

G|----------------------------------|--------------------------------------| 
D|---------4---2--------------------|--------------------------------------|
A|-2-------------------2---3---4----|--------------------------------------|
E|----------------------------------|-----4---0---2-----------4---2--------|
   1   +   2   +   3   +   4   +      1   +   2   +   3   +   4   +

    G|------0-2-------0-2-------0-2--------------------------------------------|
    D|-------------------------------------------------------------------------|
    A|-0-0-------0-0-------0-0-------0-----------------------------------------|
    E|-------------------------------------------------------------------------|


Guitar

GUITAR Tab
INTRO
(let's start by playing a 3-2 clave)
e|-5-----5-----5-------5---5--------|-5-----5-----5-------5---5------------| 
B|----------------------------------|--------------------------------------|
G|----------------------------------|--------------------------------------| 
D|----------------------------------|--------------------------------------|
A|----------------------------------|--------------------------------------|
E|----------------------------------|--------------------------------------|
   1   +   2   +   3   +   4   +      1   +   2   +   3   +   4   +


VERSE 

(Sean)
e|----------------------------------|--------------------------------------| 
B|-2---2---2---0--------------------|-0---0---0----------------------------|
G|---------------------2------------|-------------1---2--------------------| 
D|----------------------------------|--------------------------------------|
A|----------------------------------|--------------------------------------|
E|----------------------------------|--------------------------------------|
   1   +   2   +   3   +   4   +      1   +   2   +   3   +   4   +
   
(Joe)   
e|----------------------------------|--------------------------------------| 
B|--13/14------14-------------------|--------------------------------------|
G|----------------------------------|--------------------------------------| 
D|----------------------------------|--------------------------------------|
A|----------------------------------|--------------------------------------|
E|----------------------------------|--------------------------------------|
   1   +   2   +   3   +   4   +      1   +   2   +   3   +   4   +  
   
    





home | transcription | piano tuning | lessons | student resources | audio | about me | contact
top of page
Copyright ©   andyletke.com
info@andyletke.com