Beard Show 7.0

Page updated Dec. 22, 2017


Back to Main Page

Do You Realize?? - Tutorial

Table of Contents

  1. Song Audio (YouTube)
  2. Song Lyrics and Chords
  3. Keyboard
  4. Bass Tab
  5. Guitar Tab

YouTube Song Audio



Song Form

SONG FORM:
let's start with this much

[Intro]
| C / / / | Em/B / / / | Am / / / | D7 / / / |

VERSE
| C / / / | Em / / / | Am / / / | G / | F / / / |
| C / / / | Em / / / | Am / / / | D7 / / / |
| F / / / | Em / / / | Am / / / | G /  F / |
| C / / / | Em / / / | Am / / / | F / Fm / |
| C / / / | C / / / |

PRE CHORUS
| F / Em / | G / / / |

CHORUS
| C / F / | C / G / | C / Em / |
| G / F / | G / | C / / / |

Song Lyrics and Chords

[Intro]

1! 2! 3! 4! 

| C / / / | Em/B / / / | Am / / / | D7 / / / |



[Verse I]
    
        C  Em/B         Am              G   /     F    / 
Do you realize That you have the most, beautiful face?

 /      C   Em  Am                D7
Do you realize we're floating in space?

        F   Em       Am                 G
Do you realize that happiness makes you cry?

F       C   Em      Am           F        Fm/Ab     C/G
Do you realize that everyone you know someday will die?



[Pre-Chorus I]

    F                 Em              G/D           
And instead of saying all of your goodbyes let them know you



[Chorus I]

C             F          
Realize that life goes fast, 
      C                G7
it's hard to make the good things last.

    C                 Em                 
You realize that sun doesn't go down, 
      G                F
it's just an illusion caused 
        G7              C
by the world, spinnin' round.



[BRIDGE]

Fm /   Bb  /
   ....Do you 
    Eb  /  /  /    Gm/D / / / | Cm / / / | Abm /
   realize??  Ah-ah-ah......

  4/4..................................
e|-----------------------|-------------------------|---------------------|------------------|
B|-----------------------|-------------------------|---------------------|------------------|
G|-----------------------|-------------------------|---------------------|------------------|
D|-----------------------|-----------------------8-|---------------------|------------------|
A|-8-8/10-8-10-8-10-8-10-|-8-8/10-8-10-8-10-8-10---|-8-10-8-10-8-10-8-10-|-10-10/11-10-10/11|
E|-----------------------|-------------------------|---------------------|------------------|


[Verse II]

F       C      Em        Am       F        Fm        C
Do you realize that everyone you know someday will die?



[Pre-Chorus II]

    F                 Em              G           
And instead of saying all of your goodbyes let them know you



[Chorus II]

Am                                 Dm               
Realize that life goes fast, it's hard to make the good things last.

    F                                         Dm
You realize that sun doesn't go down, it's just an illusion

Fm                             Am
caused by the world, spinnin' round.



[Verse III]

  4/4............
e|-------------------------|---------|
B|-------------------------|---------|
G|-------------------------|---------|
D|-------------------------|---------|
A|-5-5/7-5-5/7-5-5/7-5-5/7-|-2-5-2-5-|
E|-------------------------|---------|


F     C      Em         Am             G         F
Do you realize that you have the most, beautiful face? 

F  Fm   C
Do you realize?



Keyboards

Bass

Bass Tab

lots coming soon!

INTRO 
G|----------------------------------|---------------------------------| 
D|----------------------------------|---------------------------------|
A|----------------------------------|---------------------------------|
E|----------------------------------|---------------------------------|
        

Guitar

GUITAR Tab

the following is an idea to get started. I'll simplify.

Chord chart for song:

  C    Em   Am   F    G    G7   Dm   D7   Fm   Eb   Gm   Cm   Abm
e|0----0----0----1----3----1----1----2----1----6----3----3----4-|
B|1----0----1----1----0----0----3----1----1----6----3----4----4-|
G|0----0----2----2----0----0----2----2----1----8----3----5----4-|
D|2----2----2----3----0----0----0----0----3----8----5----5----6-|
A|3----2----0----x----2----2----x----x----3----6----5----3----6-|
E|x----0----x----x----3----3----x----x----1----x----3----x----4-|







home | transcription | piano tuning | lessons | student resources | audio | about me | contact
top of page
Copyright ©   andyletke.com
info@andyletke.com