Beard Show 7.0

Page updated Dec. 8, 2017


Back to Main Page

Learn to Fly - Tutorial

Table of Contents

  1. Song Audio (YouTube)
  2. Song Lyrics and Chords
  3. Keyboard
  4. Bass Tab
  5. Guitar Tab

YouTube Song Audio



Song Form

SONG FORM:

coming soon

Song Lyrics and Chords

[Intro]

| B / / / | F#m / / / | E / / / | E / / / |
| B / / / | F#m / / / | E / / / | E / / / |


[Verse]

B                       F#m     
Run and tell all of the angels
E
This could take all night
B                       F#m                 E
Think I need a devil to help me get things right
B                    F#m
Hook me up a new revolution
     E
Cause this one is a lie
   B                        F#m                    E
We sat around laughing, and watching the last one die


[Chorus]

    B                     F#m
I'm looking to the sky to save me
E
Looking for a sign of life
B                        F#m              E 
Looking for something to help me burn out bright
B                      F#m
I'm looking for a complication
E
Looking 'cause I'm tired of lying
G                A                 B            
Make my way back home and learn to fly


[Instrumental]

B  F#m   E  
B  F#m   E 


[Verse]

B                      F#m
Think I'm done nursing the patience,
E
It could wait one night.
B                        F#m              E
Give it all away if you give me one last try
B               F#m             E
We'll live happily ever trapped if you just save my life.
B                            F#m               E
Run and tell the angels that everything's alright.


[Chorus]

    B                      F#m
I'm looking to the sky to save me,
E
Looking for a sign of life.
B                        Fm             E
Looking for something to help me burnout bright.
    B                  F#m
I'm looking for a complication,
E
Looking 'cause I'm tired of trying.
G                A                    E
Make my way back home when I learn to fly.
G                A                    B
Make my way back home when I learn to fly....
    G               D                   E
....along with me I can't quite make it alone.
G                A           
Try to make this life my own.
B       G               D                   E
Fly.....along with me I can't quite make it alone.
G                 A               
Try to make this life my own.
    B                     F#m
I'm looking to the sky to save me,
E
Looking for a sign of life.
B                        F#m             E
Looking for something to help me burnout bright.
    B                  F#m
I'm looking for a complication,
E
Looking 'cause I'm tired of trying.
G                A      
Make my way back home when I learn to
B                     F#m
Looking to the sky to save me,
E
Looking for a sign of life.
B                        F#m             E
Looking for something to help me burnout bright.
    B                  F#m
I'm looking for a complication,
E
Looking 'cause I'm tired of trying.
G                A                    E
Make my way back home when I learn to fly.
G                A                    E 
Make my way back home when I learn to fly.
G                A      
Make my way back home when I learn to, to, to...


[Outro]

B    B    B    B     B - A - B7



Keyboards

Bass

Bass Tab
INTRO 
G|----------------------------------|---------------------------------| 
D|----------------------------------|---------------------------------|
A|----------------------------------|---------------------------------|
E|----------------------------------|---------------------------------|
        

Guitar

GUITAR Tab
INTRO SOLO
e|----------------------------------|
B|----------------------------------|
G|--4---44----4-5---55---b5---4-----| 
D|----------------------------------|
A|----------------------------------|
E|----------------------------------|

VERSE Shapes
INTRO 

   Bm            F#            E      G         A
e|----------------------------------|---------------------------------| 
B|----------------------------------|---------------------------------|
G|----------------------------------|---------------------------------| 
D|-4--------------------------------|---------------------------------|
A|-2-------------4-------------2----|-5---------7---------------------|
E|---------------2-------------0----|-3---------5---------------------|





home | transcription | piano tuning | lessons | student resources | audio | about me | contact
top of page
Copyright ©   andyletke.com
info@andyletke.com