Beard Show 7.0

Page updated Dec. 16, 2017


Back to Main Page

Take Me Out - Tutorial

Table of Contents

  1. Song Audio (YouTube)
  2. Song Lyrics and Chords
  3. Keyboard
  4. Bass Tab
  5. Guitar Tab

YouTube Song Audio



Song Form

SONG FORM:

coming soon

Song Lyrics and Chords

[Verse]

E                   Am         D
       So if you're lonely 
                G  Bm        Em 
you know i'm here waiting for you 
           Am           D
I'm just a crosshair    
            G   Bm       Em
I'm just a shot away from you 
           Am           D
and if you leave here 
                G    Bm              Em
you leave me broken shattered alive 
            Am          D
I'm just a crosshair 
           G     Bm          Em
I'm just a shot..then we can die 

G       A    Em               G   A  Em
Ahhh-ahhh-ahhh


[Chorus]

G      D          F            C       Em
I know i wont be leaving here     with you 

[then slow the Em down here as the song changes tempo]



Em  Am  Bm


[Verse]

Em
I say don't you know 
Em
you say I don't know 
Am     Bm
I say... take me out 
Em
I say you don't show 
Em
don't move time is slow 
Am      Bm
I say... take me out 

Em
I say you don't know 
Em
you say you don't know 
Am      Bm               Em
I say... take me out 
Em
If i move this could die 
Em
eyes move this can die 
Am     Bm        Em
I want you... to take me out 


[Chorus]

Am               C           D
I know I wont be leaving here 
Am               C           D
I know I wont be leaving here 
Am               C           D
I know I wont be leaving here 
Am               C           D       Em
I know I wont be leaving here with you 


[Instrumental]

Em     Am     Bm 


[Verse]

Em
I say don't you know 
Em
you say you don't know 
Am     Bm
I say... take me out 
Em
If I wait this could die 
Em
If I wait this can die 
Am     Bm        Em
I want you... to take me out 

Em
If i move this could die 
Em
eyes move this can die 
Am     Bm        Em
I want you... to take me out 
Am    Bm[stop]
c'mon...      take me out 


[Instrumental]

Em     Am     Bm
Em     Em


[Chorus]

Am               C           D
I know i wont be leaving here 
Am               C           D
I know i wont be leaving here 
Am               C           D
I know i wont be leaving here 
Am               C           D       Em
I know i wont be leaving here with you 



Keyboards

Bass

Bass Tab
BRIDGE 
G|-2-2-0-0--------------------------|
D|---------4-4-2-0---------0-0-0-0--|
A|-----------------3-3-3-3----------|
E|----------------------------------|
        

Guitar

GUITAR Tab
[Intro] (4 measures)                                     
E|----------------------------------------------------|
B|----------------------------------------------------|
G|----------------------------------------------------|
D|----------------------------------------------------|
A|-777~---7-7-7-7-7-7-7-7-7-7-7-7-7-7-7-7-7-7-7-7-7-7-|
E|-000~---0-0-0-0-0-0-0-0-0-0-0-0-0-0-0-0-0-0-0-0-0-0-|


[FIRST VOCAL PART - INTRO]
   Guitar 1 (Sean)
E|---------------------------------------------------------------------|
B|---------------------------------------------------------------------|
G|---------------------------------------------------------------------|
D|-5-5-5-5-5-5-5-5-4-4-4-4-4-4-4-4-9--9--9--9--7-7-7-7-5-5-5-5-5-5-5-5-|
A|---------------------------------------------------------------------|
E|---------------------------------------------------------------------| 
 |
 |                                                                 (x4)
 | Guitar 2 (Joe)
E|---------------------------------------------------------------------|
B|---------------------------------------------------------------------|
G|---------------------------------------------------------------------|
D|---------------------------------------------------------------------|
A|-7-7-7-7-7-7-7-7-5-5-5-5-5-5-5-5-10-10-10-10-9-9-9-9-7-7-7-7-7-7-7-7-|
E|---------------------------------------------------------------------|


[SECTION 2]

   /------UNISON------------------\

E|-----------------------------------------------------------------|
B|-----------------------------------------------------------------|
G|-----------------------------------------------------------------|
D|-5-5-5-5-7-7-7-7--------------------------------------------------|
A|-----------------7-7-7-7-7-7-7-7-5-5-5-5-7-7-7-7-7-7-7-7-7-7-7-7-|
E|---------------------------------3-3-3-3-5-5-5-5-0-0-0-0-0-0-0-0-|


NEW INTRO STUFF NEXT WEEK!


[SECTION 4]

Guitar 1 (SEAN)
E|----------------------------------------------------------------|
B|-8---------------8---------------8---------------7777777777-----|
G|---9-9p7--7-9-9----9-9p7--7-9-9----9-9p7--7-9-9------------7777-|
D|--------9---------------9---------------9-----------------------|x2
A|----------------------------------------------------------------|
E|----------------------------------------------------------------|


Guitar 2 (JOE)
E|---------------------------------------------------------10------10-----|
B|-----12-----12--------12-----12--------12-----12------------------------|
G|-9h12---9h12---9--9h12---9h12---9--9h12---9h12---9--11h12---11h12--12p9-|
D|------------------------------------------------------------------------|x2
A|------------------------------------------------------------------------|
E|------------------------------------------------------------------------|





home | transcription | piano tuning | lessons | student resources | audio | about me | contact
top of page
Copyright ©   andyletke.com
info@andyletke.com